  0
SECTION
  2
HEADER
  9
$ACADVER
  1
AC1015
  9
$ACADMAINTVER
 70
     6
  9
$DWGCODEPAGE
  3
ANSI_1254
  9
$INSBASE
 10
0.0
 20
0.0
 30
0.0
  9
$EXTMIN
 10
0.0
 20
0.0
 30
0.0
  9
$EXTMAX
 10
279.4
 20
215.9
 30
0.0
  9
$LIMMIN
 10
0.0
 20
0.0
  9
$LIMMAX
 10
279.4
 20
215.9
  9
$ORTHOMODE
 70
     0
  9
$REGENMODE
 70
     1
  9
$FILLMODE
 70
     1
  9
$QTEXTMODE
 70
     0
  9
$MIRRTEXT
 70
     1
  9
$LTSCALE
 40
1.0
  9
$ATTMODE
 70
     1
  9
$TEXTSIZE
 40
3.5
  9
$TRACEWID
 40
1.0
  9
$TEXTSTYLE
  7
Standard
  9
$CLAYER
  8
0
  9
$CELTYPE
  6
ByLayer
  9
$CECOLOR
 62
   256
  9
$CELTSCALE
 40
1.0
  9
$DISPSILH
 70
     0
  9
$DIMSCALE
 40
1.0
  9
$DIMASZ
 40
3.5
  9
$DIMEXO
 40
1.0
  9
$DIMDLI
 40
3.75
  9
$DIMRND
 40
0.0
  9
$DIMDLE
 40
0.0
  9
$DIMEXE
 40
1.0
  9
$DIMTP
 40
0.0
  9
$DIMTM
 40
0.0
  9
$DIMTXT
 40
3.5
  9
$DIMCEN
 40
2.5
  9
$DIMTSZ
 40
0.0
  9
$DIMTOL
 70
     0
  9
$DIMLIM
 70
     0
  9
$DIMTIH
 70
     1
  9
$DIMTOH
 70
     1
  9
$DIMSE1
 70
     0
  9
$DIMSE2
 70
     0
  9
$DIMTAD
 70
     1
  9
$DIMZIN
 70
     0
  9
$DIMBLK
  1

  9
$DIMASO
 70
     1
  9
$DIMSHO
 70
     1
  9
$DIMPOST
  1

  9
$DIMAPOST
  1

  9
$DIMALT
 70
     0
  9
$DIMALTD
 70
     3
  9
$DIMALTF
 40
0.0393700787
  9
$DIMLFAC
 40
1.0
  9
$DIMTOFL
 70
     1
  9
$DIMTVP
 40
0.0
  9
$DIMTIX
 70
     0
  9
$DIMSOXD
 70
     0
  9
$DIMSAH
 70
     0
  9
$DIMBLK1
  1

  9
$DIMBLK2
  1

  9
$DIMSTYLE
  2
ISO-25
  9
$DIMCLRD
 70
     0
  9
$DIMCLRE
 70
     0
  9
$DIMCLRT
 70
     0
  9
$DIMTFAC
 40
1.0
  9
$DIMGAP
 40
1.524
  9
$DIMJUST
 70
     0
  9
$DIMSD1
 70
     0
  9
$DIMSD2
 70
     0
  9
$DIMTOLJ
 70
     0
  9
$DIMTZIN
 70
     0
  9
$DIMALTZ
 70
     0
  9
$DIMALTTZ
 70
     0
  9
$DIMUPT
 70
     0
  9
$DIMDEC
 70
     2
  9
$DIMTDEC
 70
     2
  9
$DIMALTU
 70
     2
  9
$DIMALTTD
 70
     3
  9
$DIMTXSTY
  7
Standard
  9
$DIMAUNIT
 70
     0
  9
$DIMADEC
 70
     2
  9
$DIMALTRND
 40
0.0
  9
$DIMAZIN
 70
     0
  9
$DIMDSEP
 70
    44
  9
$DIMATFIT
 70
     3
  9
$DIMFRAC
 70
     0
  9
$DIMLDRBLK
  1

  9
$DIMLUNIT
 70
     2
  9
$DIMLWD
 70
    -2
  9
$DIMLWE
 70
    -2
  9
$DIMTMOVE
 70
     0
  9
$LUNITS
 70
     2
  9
$LUPREC
 70
     2
  9
$SKETCHINC
 40
1.0
  9
$FILLETRAD
 40
10.0
  9
$AUNITS
 70
     0
  9
$AUPREC
 70
     2
  9
$MENU
  1
.
  9
$ELEVATION
 40
0.0
  9
$PELEVATION
 40
0.0
  9
$THICKNESS
 40
0.0
  9
$LIMCHECK
 70
     0
  9
$CHAMFERA
 40
0.0
  9
$CHAMFERB
 40
0.0
  9
$CHAMFERC
 40
0.0
  9
$CHAMFERD
 40
0.0
  9
$SKPOLY
 70
     0
  9
$TDCREATE
 40
2458985.681948982
  9
$TDUCREATE
 40
2458985.556948982
  9
$TDUPDATE
 40
2458985.681949271
  9
$TDUUPDATE
 40
2458985.556949271
  9
$TDINDWG
 40
0.0000000116
  9
$TDUSRTIMER
 40
0.0000000116
  9
$USRTIMER
 70
     1
  9
$ANGBASE
 50
0.0
  9
$ANGDIR
 70
     0
  9
$PDMODE
 70
     0
  9
$PDSIZE
 40
-1.0
  9
$PLINEWID
 40
0.0
  9
$SPLFRAME
 70
     0
  9
$SPLINETYPE
 70
     6
  9
$SPLINESEGS
 70
     8
  9
$HANDSEED
  5
CB
  9
$SURFTAB1
 70
     6
  9
$SURFTAB2
 70
     6
  9
$SURFTYPE
 70
     6
  9
$SURFU
 70
     6
  9
$SURFV
 70
     6
  9
$UCSBASE
  2

  9
$UCSNAME
  2

  9
$UCSORG
 10
0.0
 20
0.0
 30
0.0
  9
$UCSXDIR
 10
1.0
 20
0.0
 30
0.0
  9
$UCSYDIR
 10
0.0
 20
1.0
 30
0.0
  9
$UCSORTHOREF
  2

  9
$UCSORTHOVIEW
 70
     0
  9
$UCSORGTOP
 10
0.0
 20
0.0
 30
0.0
  9
$UCSORGBOTTOM
 10
0.0
 20
0.0
 30
0.0
  9
$UCSORGLEFT
 10
0.0
 20
0.0
 30
0.0
  9
$UCSORGRIGHT
 10
0.0
 20
0.0
 30
0.0
  9
$UCSORGFRONT
 10
0.0
 20
0.0
 30
0.0
  9
$UCSORGBACK
 10
0.0
 20
0.0
 30
0.0
  9
$PUCSBASE
  2

  9
$PUCSNAME
  2

  9
$PUCSORG
 10
0.0
 20
0.0
 30
0.0
  9
$PUCSXDIR
 10
1.0
 20
0.0
 30
0.0
  9
$PUCSYDIR
 10
0.0
 20
1.0
 30
0.0
  9
$PUCSORTHOREF
  2

  9
$PUCSORTHOVIEW
 70
     0
  9
$PUCSORGTOP
 10
0.0
 20
0.0
 30
0.0
  9
$PUCSORGBOTTOM
 10
0.0
 20
0.0
 30
0.0
  9
$PUCSORGLEFT
 10
0.0
 20
0.0
 30
0.0
  9
$PUCSORGRIGHT
 10
0.0
 20
0.0
 30
0.0
  9
$PUCSORGFRONT
 10
0.0
 20
0.0
 30
0.0
  9
$PUCSORGBACK
 10
0.0
 20
0.0
 30
0.0
  9
$USERI1
 70
     0
  9
$USERI2
 70
     0
  9
$USERI3
 70
     0
  9
$USERI4
 70
     0
  9
$USERI5
 70
     0
  9
$USERR1
 40
0.0
  9
$USERR2
 40
0.0
  9
$USERR3
 40
0.0
  9
$USERR4
 40
0.0
  9
$USERR5
 40
0.0
  9
$WORLDVIEW
 70
     1
  9
$SHADEDGE
 70
     3
  9
$SHADEDIF
 70
    70
  9
$TILEMODE
 70
     1
  9
$MAXACTVP
 70
    64
  9
$PINSBASE
 10
0.0
 20
0.0
 30
0.0
  9
$PLIMCHECK
 70
     0
  9
$PEXTMIN
 10
1.0000000000E+20
 20
1.0000000000E+20
 30
1.0000000000E+20
  9
$PEXTMAX
 10
-1.0000000000E+20
 20
-1.0000000000E+20
 30
-1.0000000000E+20
  9
$PLIMMIN
 10
0.0
 20
0.0
  9
$PLIMMAX
 10
420.0
 20
297.0
  9
$UNITMODE
 70
     0
  9
$VISRETAIN
 70
     1
  9
$PLINEGEN
 70
     0
  9
$PSLTSCALE
 70
     1
  9
$TREEDEPTH
 70
  3020
  9
$CMLSTYLE
  2
Standard
  9
$CMLJUST
 70
     0
  9
$CMLSCALE
 40
20.0
  9
$PROXYGRAPHICS
 70
     1
  9
$MEASUREMENT
 70
     1
  9
$CELWEIGHT
370
    -1
  9
$ENDCAPS
280
     0
  9
$JOINSTYLE
280
     0
  9
$LWDISPLAY
290
     1
  9
$INSUNITS
 70
     4
  9
$HYPERLINKBASE
  1

  9
$STYLESHEET
  1

  9
$XEDIT
290
     1
  9
$CEPSNTYPE
380
     0
  9
$PSTYLEMODE
290
     1
  9
$FINGERPRINTGUID
  2
{b74519af-a4ef-4138-9743-936f2fc687be}
  9
$VERSIONGUID
  2
{FAEB1C32-E019-11D5-929B-00C0DF256EC4}
  9
$EXTNAMES
290
     1
  9
$PSVPSCALE
 40
0.0
  9
$OLESTARTUP
290
     0
  0
ENDSEC
  0
SECTION
  2
CLASSES
  0
CLASS
  1
ACDBDICTIONARYWDFLT
  2
AcDbDictionaryWithDefault
  3
ObjectDBX Classes
 90
        0
280
     0
281
     0
  0
CLASS
  1
VISUALSTYLE
  2
AcDbVisualStyle
  3
ObjectDBX Classes
 90
     4095
280
     0
281
     0
  0
CLASS
  1
MATERIAL
  2
AcDbMaterial
  3
ObjectDBX Classes
 90
     1153
280
     0
281
     0
  0
CLASS
  1
SCALE
  2
AcDbScale
  3
ObjectDBX Classes
 90
     1153
280
     0
281
     0
  0
CLASS
  1
TABLESTYLE
  2
AcDbTableStyle
  3
ObjectDBX Classes
 90
     4095
280
     0
281
     0
  0
CLASS
  1
MLEADERSTYLE
  2
AcDbMLeaderStyle
  3
ACDB_MLEADERSTYLE_CLASS
 90
     4095
280
     0
281
     0
  0
CLASS
  1
SUN
  2
AcDbSun
  3
SCENEOE
 90
     1153
280
     0
281
     0
  0
CLASS
  1
ACDBPLACEHOLDER
  2
AcDbPlaceHolder
  3
ObjectDBX Classes
 90
        0
280
     0
281
     0
  0
CLASS
  1
LAYOUT
  2
AcDbLayout
  3
ObjectDBX Classes
 90
        0
280
     0
281
     0
  0
ENDSEC
  0
SECTION
  2
TABLES
  0
TABLE
  2
VPORT
  5
8
330
0
100
AcDbSymbolTable
 70
     1
  0
VPORT
  5
29
330
8
100
AcDbSymbolTableRecord
100
AcDbViewportTableRecord
  2
*Active
 70
     0
 10
0.0
 20
0.0
 11
1.0
 21
1.0
 12
139.7
 22
107.95
 13
0.0
 23
0.0
 14
10.0
 24
10.0
 15
10.0
 25
10.0
 16
0.0
 26
0.0
 36
1.0
 17
0.0
 27
0.0
 37
0.0
 40
215.9
 41
1.2941176471
 42
50.0
 43
0.0
 44
0.0
 50
0.0
 51
0.0
 71
     0
 72
  2000
 73
     1
 74
     3
 75
     0
 76
     0
 77
     0
 78
     0
281
     0
 65
     1
110
0.0
120
0.0
130
0.0
111
1.0
121
0.0
131
0.0
112
0.0
122
1.0
132
0.0
 79
     0
146
0.0
  0
ENDTAB
  0
TABLE
  2
LTYPE
  5
5
330
0
100
AcDbSymbolTable
 70
     6
  0
LTYPE
  5
14
330
5
100
AcDbSymbolTableRecord
100
AcDbLinetypeTableRecord
  2
ByBlock
 70
     0
  3

 72
    65
 73
     0
 40
0.0
  0
LTYPE
  5
15
330
5
100
AcDbSymbolTableRecord
100
AcDbLinetypeTableRecord
  2
ByLayer
 70
     0
  3

 72
    65
 73
     0
 40
0.0
  0
LTYPE
  5
16
330
5
100
AcDbSymbolTableRecord
100
AcDbLinetypeTableRecord
  2
Continuous
 70
     0
  3
Solid line
 72
    65
 73
     0
 40
0.0
  0
LTYPE
  5
6E
330
5
100
AcDbSymbolTableRecord
100
AcDbLinetypeTableRecord
  2
HIDDEN
 70
     0
  3
Hidden __ __ __ __ __ __ __ __ __ __ __ __ __ __
 72
    65
 73
     2
 40
1.905
 49
1.27
 74
     0
 49
-0.635
 74
     0
  0
LTYPE
  5
6F
330
5
100
AcDbSymbolTableRecord
100
AcDbLinetypeTableRecord
  2
PHANTOM
 70
     0
  3
Phantom ______  __  __  ______  __  __  ______
 72
    65
 73
     6
 40
12.7
 49
6.35
 74
     0
 49
-1.27
 74
     0
 49
1.27
 74
     0
 49
-1.27
 74
     0
 49
1.27
 74
     0
 49
-1.27
 74
     0
  0
LTYPE
  5
70
330
5
100
AcDbSymbolTableRecord
100
AcDbLinetypeTableRecord
  2
CENTER
 70
     0
  3
Center ____ _ ____ _ ____ _ ____ _ ____ _ ____
 72
    65
 73
     4
 40
10.16
 49
6.35
 74
     0
 49
-1.27
 74
     0
 49
1.27
 74
     0
 49
-1.27
 74
     0
  0
LTYPE
  5
71
330
5
100
AcDbSymbolTableRecord
100
AcDbLinetypeTableRecord
  2
CENTERX2
 70
     0
  3
Center (2x) ________  __  ________  __  _____
 72
    65
 73
     4
 40
20.32
 49
12.7
 74
     0
 49
-2.54
 74
     0
 49
2.54
 74
     0
 49
-2.54
 74
     0
  0
LTYPE
  5
72
330
5
100
AcDbSymbolTableRecord
100
AcDbLinetypeTableRecord
  2
DOT2
 70
     0
  3
Dot (.5x) ........................................
 72
    65
 73
     2
 40
0.635
 49
0.0
 74
     0
 49
-0.635
 74
     0
  0
ENDTAB
  0
TABLE
  2
LAYER
  5
2
330
0
100
AcDbSymbolTable
 70
    17
  0
LAYER
  5
10
330
2
100
AcDbSymbolTableRecord
100
AcDbLayerTableRecord
  2
0
 70
     0
 62
     7
  6
Continuous
370
    -3
390
F
  0
LAYER
  5
73
330
2
100
AcDbSymbolTableRecord
100
AcDbLayerTableRecord
  2
FORMAT
 70
     0
 62
     7
  6
Continuous
370
    -3
390
F
  0
LAYER
  5
74
330
2
100
AcDbSymbolTableRecord
100
AcDbLayerTableRecord
  2
YARDIMCI_GEOMETRI
 70
     0
 62
    -6
  6
Continuous
290
     0
370
    -3
390
F
  0
LAYER
  5
75
330
2
100
AcDbSymbolTableRecord
100
AcDbLayerTableRecord
  2
SAYFA_CERCEVESI
 70
     0
 62
     7
  6
Continuous
370
    25
390
F
  0
LAYER
  5
76
330
2
100
AcDbSymbolTableRecord
100
AcDbLayerTableRecord
  2
ANTET
 70
     0
 62
     7
  6
Continuous
370
    -3
390
F
  0
LAYER
  5
77
330
2
100
AcDbSymbolTableRecord
100
AcDbLayerTableRecord
  2
OLCU
 70
     0
 62
   150
  6
Continuous
370
    -3
390
F
  0
LAYER
  5
78
330
2
100
AcDbSymbolTableRecord
100
AcDbLayerTableRecord
  2
METIN
 70
     0
 62
    96
  6
Continuous
370
    -3
390
F
  0
LAYER
  5
79
330
2
100
AcDbSymbolTableRecord
100
AcDbLayerTableRecord
  2
BALON
 70
     0
 62
     5
  6
Continuous
370
    -3
390
F
  0
LAYER
  5
7A
330
2
100
AcDbSymbolTableRecord
100
AcDbLayerTableRecord
  2
VURGU
 70
     0
 62
     7
  6
Continuous
370
    -3
390
F
  0
LAYER
  5
7B
330
2
100
AcDbSymbolTableRecord
100
AcDbLayerTableRecord
  2
SILIK
 70
     0
 62
     7
  6
Continuous
370
    -3
390
F
  0
LAYER
  5
7C
330
2
100
AcDbSymbolTableRecord
100
AcDbLayerTableRecord
  2
MODEL
 70
     0
 62
     7
  6
Continuous
370
    -3
390
F
  0
LAYER
  5
7D
330
2
100
AcDbSymbolTableRecord
100
AcDbLayerTableRecord
  2
DETAYLANDıRMA
 70
     0
 62
   190
  6
Continuous
370
    -3
390
F
  0
LAYER
  5
7E
330
2
100
AcDbSymbolTableRecord
100
AcDbLayerTableRecord
  2
TOLERANS
 70
     0
 62
   230
  6
Continuous
370
    -3
390
F
  0
LAYER
  5
7F
330
2
100
AcDbSymbolTableRecord
100
AcDbLayerTableRecord
  2
MERKEZ_CIZGILERI
 70
     0
 62
    30
  6
Continuous
370
    -3
390
F
  0
LAYER
  5
80
330
2
100
AcDbSymbolTableRecord
100
AcDbLayerTableRecord
  2
KESIT-DETAY_CIZGILERI
 70
     0
 62
     7
  6
Continuous
370
    -3
390
F
  0
LAYER
  5
81
330
2
100
AcDbSymbolTableRecord
100
AcDbLayerTableRecord
  2
\U+041E\U+0421\U+0415\U+0412\U+042B\U+0415
 70
     0
 62
     7
  6
Continuous
370
    -3
390
F
  0
LAYER
  5
82
330
2
100
AcDbSymbolTableRecord
100
AcDbLayerTableRecord
  2
\U+0412\U+041E\U+0414\U+042F\U+041D\U+042B\U+0415_\U+0417\U+041D\U+0410\U+041A\U+0418
 70
     0
 62
    11
  6
Continuous
370
    -3
390
F
  0
ENDTAB
  0
TABLE
  2
STYLE
  5
3
330
0
100
AcDbSymbolTable
 70
     1
  0
STYLE
  5
11
330
3
100
AcDbSymbolTableRecord
100
AcDbTextStyleTableRecord
  2
Standard
 70
     0
 40
0.0
 41
1.0
 50
0.0
 71
     0
 42
3.5
  3
txt
  4

  0
ENDTAB
  0
TABLE
  2
VIEW
  5
6
330
0
100
AcDbSymbolTable
 70
     0
  0
ENDTAB
  0
TABLE
  2
UCS
  5
7
330
0
100
AcDbSymbolTable
 70
     0
  0
ENDTAB
  0
TABLE
  2
APPID
  5
9
330
0
100
AcDbSymbolTable
 70
     1
  0
APPID
  5
12
330
9
100
AcDbSymbolTableRecord
100
AcDbRegAppTableRecord
  2
ACAD
 70
     0
  0
ENDTAB
  0
TABLE
  2
DIMSTYLE
  5
A
330
0
100
AcDbSymbolTable
 70
     1
100
AcDbDimStyleTable
  0
DIMSTYLE
105
27
330
A
100
AcDbSymbolTableRecord
100
AcDbDimStyleTableRecord
  2
ISO-25
 70
     0
 41
2.5
 42
0.625
 43
3.75
 44
1.25
 73
     0
 74
     0
 77
     1
 78
     8
140
2.5
141
2.5
143
0.0393700787
147
0.625
171
     3
172
     1
178
     0
271
     2
272
     2
274
     3
278
    44
283
     0
284
     8
340
11
  0
ENDTAB
  0
TABLE
  2
BLOCK_RECORD
  5
1
330
0
100
AcDbSymbolTable
 70
     3
  0
BLOCK_RECORD
  5
1F
330
1
100
AcDbSymbolTableRecord
100
AcDbBlockTableRecord
  2
*Model_Space
340
22
  0
BLOCK_RECORD
  5
1B
330
1
100
AcDbSymbolTableRecord
100
AcDbBlockTableRecord
  2
*Paper_Space
340
1E
  0
BLOCK_RECORD
  5
23
330
1
100
AcDbSymbolTableRecord
100
AcDbBlockTableRecord
  2
*Paper_Space0
340
26
  0
BLOCK_RECORD
  5
88
330
1
100
AcDbSymbolTableRecord
100
AcDbBlockTableRecord
  2
SW_CENTERMARKSYMBOL_0
340
0
102
{BLKREFS
331
93
102
}
  0
BLOCK_RECORD
  5
B2
330
1
100
AcDbSymbolTableRecord
100
AcDbBlockTableRecord
  2
SW_CENTERMARKSYMBOL_1
340
0
102
{BLKREFS
331
BD
102
}
  0
ENDTAB
  0
ENDSEC
  0
SECTION
  2
BLOCKS
  0
BLOCK
  5
20
330
1F
100
AcDbEntity
  8
0
100
AcDbBlockBegin
  2
*Model_Space
 70
     0
 10
0.0
 20
0.0
 30
0.0
  3
*Model_Space
  1

  0
ENDBLK
  5
21
330
1F
100
AcDbEntity
  8
0
100
AcDbBlockEnd
  0
BLOCK
  5
1C
330
1B
100
AcDbEntity
 67
     1
  8
0
100
AcDbBlockBegin
  2
*Paper_Space
 70
     0
 10
0.0
 20
0.0
 30
0.0
  3
*Paper_Space
  1

  0
ENDBLK
  5
1D
330
1B
100
AcDbEntity
 67
     1
  8
0
100
AcDbBlockEnd
  0
BLOCK
  5
24
330
23
100
AcDbEntity
  8
0
100
AcDbBlockBegin
  2
*Paper_Space0
 70
     0
 10
0.0
 20
0.0
 30
0.0
  3
*Paper_Space0
  1

  0
ENDBLK
  5
25
330
23
100
AcDbEntity
  8
0
100
AcDbBlockEnd
  0
BLOCK
  5
89
330
88
100
AcDbEntity
  8
0
100
AcDbBlockBegin
  2
SW_CENTERMARKSYMBOL_0
 70
     0
 10
0.0
 20
0.0
 30
0.0
  3
SW_CENTERMARKSYMBOL_0
  1

  0
LINE
  5
8B
330
88
100
AcDbEntity
  8
FORMAT
 62
     0
100
AcDbLine
 10
0.0
 20
0.0
 30
0.0
 11
0.0
 21
2.5
 31
0.0
  0
LINE
  5
8C
330
88
100
AcDbEntity
  8
FORMAT
 62
     0
100
AcDbLine
 10
0.0
 20
0.0
 30
0.0
 11
-2.5
 21
0.0
 31
0.0
  0
LINE
  5
8D
330
88
100
AcDbEntity
  8
FORMAT
 62
     0
100
AcDbLine
 10
0.0
 20
0.0
 30
0.0
 11
0.0
 21
-2.5
 31
0.0
  0
LINE
  5
8E
330
88
100
AcDbEntity
  8
FORMAT
 62
     0
100
AcDbLine
 10
0.0
 20
0.0
 30
0.0
 11
2.5
 21
0.0
 31
0.0
  0
LINE
  5
8F
330
88
100
AcDbEntity
  8
FORMAT
 62
     0
100
AcDbLine
 10
0.0
 20
5.0
 30
0.0
 11
0.0
 21
34.0
 31
0.0
  0
LINE
  5
90
330
88
100
AcDbEntity
  8
FORMAT
 62
     0
100
AcDbLine
 10
-5.0
 20
0.0
 30
0.0
 11
-34.0
 21
0.0
 31
0.0
  0
LINE
  5
91
330
88
100
AcDbEntity
  8
FORMAT
 62
     0
100
AcDbLine
 10
0.0
 20
-5.0
 30
0.0
 11
0.0
 21
-34.0
 31
0.0
  0
LINE
  5
92
330
88
100
AcDbEntity
  8
FORMAT
 62
     0
100
AcDbLine
 10
5.0
 20
0.0
 30
0.0
 11
34.0
 21
0.0
 31
0.0
  0
ENDBLK
  5
8A
330
88
100
AcDbEntity
  8
0
100
AcDbBlockEnd
  0
BLOCK
  5
B3
330
B2
100
AcDbEntity
  8
0
100
AcDbBlockBegin
  2
SW_CENTERMARKSYMBOL_1
 70
     0
 10
0.0
 20
0.0
 30
0.0
  3
SW_CENTERMARKSYMBOL_1
  1

  0
LINE
  5
B5
330
B2
100
AcDbEntity
  8
FORMAT
 62
     0
100
AcDbLine
 10
0.0
 20
0.0
 30
0.0
 11
0.0
 21
2.5
 31
0.0
  0
LINE
  5
B6
330
B2
100
AcDbEntity
  8
FORMAT
 62
     0
100
AcDbLine
 10
0.0
 20
0.0
 30
0.0
 11
-2.5
 21
0.0
 31
0.0
  0
LINE
  5
B7
330
B2
100
AcDbEntity
  8
FORMAT
 62
     0
100
AcDbLine
 10
0.0
 20
0.0
 30
0.0
 11
0.0
 21
-2.5
 31
0.0
  0
LINE
  5
B8
330
B2
100
AcDbEntity
  8
FORMAT
 62
     0
100
AcDbLine
 10
0.0
 20
0.0
 30
0.0
 11
2.5
 21
0.0
 31
0.0
  0
LINE
  5
B9
330
B2
100
AcDbEntity
  8
FORMAT
 62
     0
100
AcDbLine
 10
0.0
 20
5.0
 30
0.0
 11
0.0
 21
27.5
 31
0.0
  0
LINE
  5
BA
330
B2
100
AcDbEntity
  8
FORMAT
 62
     0
100
AcDbLine
 10
-5.0
 20
0.0
 30
0.0
 11
-27.5
 21
0.0
 31
0.0
  0
LINE
  5
BB
330
B2
100
AcDbEntity
  8
FORMAT
 62
     0
100
AcDbLine
 10
0.0
 20
-5.0
 30
0.0
 11
0.0
 21
-27.5
 31
0.0
  0
LINE
  5
BC
330
B2
100
AcDbEntity
  8
FORMAT
 62
     0
100
AcDbLine
 10
5.0
 20
0.0
 30
0.0
 11
27.5
 21
0.0
 31
0.0
  0
ENDBLK
  5
B4
330
B2
100
AcDbEntity
  8
0
100
AcDbBlockEnd
  0
ENDSEC
  0
SECTION
  2
ENTITIES
  0
LINE
  5
83
330
1F
100
AcDbEntity
  8
0
  6
Continuous
 62
     7
370
    25
100
AcDbLine
 10
137.7407030565
 20
90.0029005303
 30
0.0
 11
221.5275510204
 21
90.0029005303
 31
0.0
  0
LINE
  5
84
330
1F
100
AcDbEntity
  8
0
  6
Continuous
 62
     7
370
    25
100
AcDbLine
 10
221.5275510204
 20
140.0029005303
 30
0.0
 11
137.7164629079
 21
140.0029005303
 31
0.0
  0
CIRCLE
  5
85
330
1F
100
AcDbEntity
  8
0
  6
Continuous
 62
     7
370
    25
100
AcDbCircle
 10
118.5275510204
 20
115.0029005303
 30
0.0
 40
25.7
  0
CIRCLE
  5
86
330
1F
100
AcDbEntity
  8
0
  6
Continuous
 62
     7
370
    25
100
AcDbCircle
 10
118.5275510204
 20
115.0029005303
 30
0.0
 40
31.50000000000001
  0
LINE
  5
87
330
1F
100
AcDbEntity
  8
0
  6
Continuous
 62
     7
370
    25
100
AcDbLine
 10
221.5275510204
 20
140.0029005303
 30
0.0
 11
221.5275510204
 21
90.0029005303
 31
0.0
  0
INSERT
  5
93
330
1F
100
AcDbEntity
  8
FORMAT
100
AcDbBlockReference
  2
SW_CENTERMARKSYMBOL_0
 10
118.5275510204
 20
115.0029005303
 30
0.0
  0
LINE
  5
94
330
1F
100
AcDbEntity
  8
0
  6
Continuous
 62
     7
370
    25
100
AcDbLine
 10
87.0275510204
 20
38.5428789039
 30
0.0
 11
87.0275510204
 21
-177.4571210961
 31
0.0
  0
LINE
  5
95
330
1F
100
AcDbEntity
  8
0
  6
Continuous
 62
     7
370
    25
100
AcDbLine
 10
150.0275510204
 20
-44.483377102
 30
0.0
 11
150.0275510204
 21
38.5428789039
 31
0.0
  0
LINE
  5
96
330
1F
100
AcDbEntity
  8
0
  6
Continuous
 62
     7
370
    25
100
AcDbLine
 10
150.0275510204
 20
-177.4571210961
 30
0.0
 11
150.0275510204
 21
-94.4571210961
 31
0.0
  0
LINE
  5
97
330
1F
100
AcDbEntity
  8
0
  6
Continuous
 62
     7
370
    25
100
AcDbLine
 10
150.0275510204
 20
-94.4571210961
 30
0.0
 11
221.5275510204
 21
-94.4571210961
 31
0.0
  0
LINE
  5
98
330
1F
100
AcDbEntity
  8
0
  6
Continuous
 62
     7
370
    25
100
AcDbLine
 10
221.5275510204
 20
-44.4571210961
 30
0.0
 11
150.0067667989
 21
-44.4571210961
 31
0.0
  0
LWPOLYLINE
  5
99
330
1F
100
AcDbEntity
  8
0
  6
Continuous
 62
     7
370
    25
100
AcDbPolyline
 90
       29
 70
   128
 43
0.0
 10
150.0067419116
 20
-44.483377102
 10
149.8611863016
 20
-44.667068657
 10
149.3679139101
 20
-45.293553827
 10
148.5591272873
 20
-46.3347169591
 10
147.4433138732
 20
-47.8036839242
 10
146.087869683
 20
-49.6500222479
 10
144.32131281
 20
-52.192470875
 10
142.434331422
 20
-55.1643204898
 10
141.3442096273
 20
-57.0730864925
 10
140.3083672768
 20
-59.1056015558
 10
139.3366713366
 20
-61.3470877012
 10
138.5313692426
 20
-63.7210297907
 10
137.9488362291
 20
-66.3049283425
 10
137.6957020029
 20
-69.0472283212
 10
137.8262145073
 20
-71.734929776
 10
138.3273839454
 20
-74.4354123548
 10
139.4079618638
 20
-77.7481739235
 10
140.8396142853
 20
-80.8842015253
 10
141.9204136731
 20
-82.8731596516
 10
143.0366120851
 20
-84.7359978308
 10
144.1862523284
 20
-86.5196066253
 10
145.3071993863
 20
-88.162723642
 10
146.9913627809
 20
-90.5032271477
 10
147.7583755366
 20
-91.5295713159
 10
148.4382561649
 20
-92.4223182919
 10
149.3084548048
 20
-93.5447535614
 10
149.8624609335
 20
-94.2487845994
 10
150.0275510204
 20
-94.4571210961
 10
150.0275510204
 20
-94.4571210961
  0
LINE
  5
9A
330
1F
100
AcDbEntity
  8
0
  6
Continuous
 62
     7
370
    25
100
AcDbLine
 10
150.0275510204
 20
-177.4571210961
 30
0.0
 11
87.0275510204
 21
-177.4571210961
 31
0.0
  0
LINE
  5
9B
330
1F
100
AcDbEntity
  8
0
  6
Continuous
 62
     7
370
    25
100
AcDbLine
 10
150.0275510204
 20
38.5428789039
 30
0.0
 11
87.0275510204
 21
38.5428789039
 31
0.0
  0
LINE
  5
9C
330
1F
100
AcDbEntity
  8
0
  6
Continuous
 62
     7
370
    25
100
AcDbLine
 10
221.5275510204
 20
-44.4571210961
 30
0.0
 11
221.5275510204
 21
-94.4571210961
 31
0.0
  0
LINE
  5
9D
330
1F
100
AcDbEntity
  8
0
  6
Continuous
 62
     7
370
    25
100
AcDbLine
 10
150.0275510204
 20
333.2030494001
 30
0.0
 11
150.0275510204
 21
416.2030494001
 31
0.0
  0
LINE
  5
9E
330
1F
100
AcDbEntity
  8
0
  6
Continuous
 62
     7
370
    25
100
AcDbLine
 10
150.0275510204
 20
200.2030494001
 30
0.0
 11
150.0275510204
 21
283.229305406
 31
0.0
  0
LINE
  5
9F
330
1F
100
AcDbEntity
  8
0
  6
Continuous
 62
     7
370
    25
100
AcDbLine
 10
87.0275510204
 20
416.2030494001
 30
0.0
 11
87.0275510204
 21
200.2030494001
 31
0.0
  0
LINE
  5
A0
330
1F
100
AcDbEntity
  8
0
  6
Continuous
 62
     7
370
    25
100
AcDbLine
 10
150.0067667989
 20
283.2030494001
 30
0.0
 11
221.5275510204
 21
283.2030494001
 31
0.0
  0
LINE
  5
A1
330
1F
100
AcDbEntity
  8
0
  6
Continuous
 62
     7
370
    25
100
AcDbLine
 10
221.5275510204
 20
333.2030494001
 30
0.0
 11
150.0275510204
 21
333.2030494001
 31
0.0
  0
SPLINE
  5
A2
330
1F
100
AcDbEntity
  8
0
  6
Continuous
 62
     7
370
    25
100
AcDbSpline
210
0.0
220
0.0
230
1.0
 70
     8
 71
     3
 72
    37
 73
    33
 74
     0
 42
0.000000001
 43
0.00000001
 40
0.0
 40
0.0
 40
0.0
 40
0.0
 40
0.042748664753855
 40
0.0869247192828486
 40
0.129637299408102
 40
0.1733999430191326
 40
0.2020069859418625
 40
0.2308306886287297
 40
0.2602741151953385
 40
0.2899100904842037
 40
0.3189463405161402
 40
0.3481657251765468
 40
0.3780296151144941
 40
0.4081744073510882
 40
0.4419675153387935
 40
0.4765673439225655
 40
0.510421234525172
 40
0.5454665438713283
 40
0.5851944397354971
 40
0.6260467746516585
 40
0.6552605304414445
 40
0.684692803177857
 40
0.7147377833940197
 40
0.7449795874275801
 40
0.7747713796792264
 40
0.8047780015551915
 40
0.8355423635642794
 40
0.8666140957980722
 40
0.9090513755027776
 40
0.9526391290903492
 40
0.9951182904412174
 40
1.0
 40
1.0
 40
1.0
 40
1.0
 10
150.027551020408
 20
333.2030494000604
 30
0.0
 10
149.9885540207527
 20
333.1540030133327
 30
0.0
 10
149.9092579008053
 20
333.0542725674184
 30
0.0
 10
149.2846273339458
 20
332.2629465857814
 30
0.0
 10
148.3397666317694
 20
331.0456715538832
 30
0.0
 10
147.2574639749851
 20
329.6157235359427
 30
0.0
 10
146.178108391435
 20
328.142503050008
 30
0.0
 10
145.1836539222164
 20
326.741372660806
 30
0.0
 10
144.1303695787411
 20
325.195449761532
 30
0.0
 10
143.0500388404317
 20
323.5232512514473
 30
0.0
 10
141.973519882638
 20
321.7383944979692
 30
0.0
 10
140.9234048763751
 20
319.833538251301
 30
0.0
 10
139.9250729280374
 20
317.7846545157161
 30
0.0
 10
138.9930138244998
 20
315.5004200570945
 30
0.0
 10
138.2129136358123
 20
312.9560767162342
 30
0.0
 10
137.7235834237479
 20
310.1789860028794
 30
0.0
 10
137.6404656943438
 20
307.2986074401674
 30
0.0
 10
138.0068209863232
 20
304.3092037679449
 30
0.0
 10
138.8378606545815
 20
301.2726044049376
 30
0.0
 10
139.9298438992759
 20
298.5909066920939
 30
0.0
 10
141.0543455317076
 20
296.3238475429296
 30
0.0
 10
142.1167003558125
 20
294.4207692227177
 30
0.0
 10
143.2176632011209
 20
292.6155976710991
 30
0.0
 10
144.3197339741131
 20
290.9267972867354
 30
0.0
 10
145.3914793669361
 20
289.3670835335093
 30
0.0
 10
146.4148896451451
 20
287.9361693259838
 30
0.0
 10
147.3722683434228
 20
286.6395275939509
 30
0.0
 10
148.3337541641961
 20
285.3693698739504
 30
0.0
 10
149.2194576357327
 20
284.2265667190579
 30
0.0
 10
149.8178346927175
 20
283.4670611953653
 30
0.0
 10
150.0793236695614
 20
283.1377205108344
 30
0.0
 10
150.013524177328
 20
283.2207474279144
 30
0.0
 10
150.00674191163
 20
283.229305405987
 30
0.0
  0
LINE
  5
A3
330
1F
100
AcDbEntity
  8
0
  6
Continuous
 62
     7
370
    25
100
AcDbLine
 10
87.0275510204
 20
416.2030494001
 30
0.0
 11
150.0275510204
 21
416.2030494001
 31
0.0
  0
LINE
  5
A4
330
1F
100
AcDbEntity
  8
0
  6
Continuous
 62
     7
370
    25
100
AcDbLine
 10
87.0275510204
 20
200.2030494001
 30
0.0
 11
150.0275510204
 21
200.2030494001
 31
0.0
  0
LINE
  5
A5
330
1F
100
AcDbEntity
  8
0
  6
Continuous
 62
     7
370
    25
100
AcDbLine
 10
221.5275510204
 20
333.2030494001
 30
0.0
 11
221.5275510204
 21
283.2030494001
 31
0.0
  0
LINE
  5
A6
330
1F
100
AcDbEntity
  8
0
  6
Continuous
 62
     7
370
    25
100
AcDbLine
 10
258.7720746423
 20
83.5029005303
 30
0.0
 11
474.7720746423
 21
83.5029005303
 31
0.0
  0
LINE
  5
A7
330
1F
100
AcDbEntity
  8
0
  6
Continuous
 62
     7
370
    25
100
AcDbLine
 10
474.7720746423
 20
146.5029005303
 30
0.0
 11
258.7720746423
 21
146.5029005303
 31
0.0
  0
LINE
  5
A8
330
1F
100
AcDbEntity
  8
0
  6
Continuous
 62
     7
370
    25
100
AcDbLine
 10
474.7720746423
 20
146.5029005303
 30
0.0
 11
474.7720746423
 21
83.5029005303
 31
0.0
  0
LINE
  5
A9
330
1F
100
AcDbEntity
  8
0
  6
Continuous
 62
     7
370
    25
100
AcDbLine
 10
258.7720746423
 20
146.5029005303
 30
0.0
 11
258.7720746423
 21
83.5029005303
 31
0.0
  0
LINE
  5
AA
330
1F
100
AcDbEntity
  8
0
  6
Continuous
 62
     7
370
    25
100
AcDbLine
 10
53.15401147
 20
146.5029005303
 30
0.0
 11
-162.84598853
 21
146.5029005303
 31
0.0
  0
LINE
  5
AB
330
1F
100
AcDbEntity
  8
0
  6
Continuous
 62
     7
370
    25
100
AcDbLine
 10
-162.84598853
 20
83.5029005303
 30
0.0
 11
53.15401147
 21
83.5029005303
 31
0.0
  0
CIRCLE
  5
AC
330
1F
100
AcDbEntity
  8
0
  6
Continuous
 62
     7
370
    25
100
AcDbCircle
 10
-54.84598853
 20
115.0029005303
 30
0.0
 40
20.40000000000001
  0
CIRCLE
  5
AD
330
1F
100
AcDbEntity
  8
0
  6
Continuous
 62
     7
370
    25
100
AcDbCircle
 10
-54.84598853
 20
115.0029005303
 30
0.0
 40
25.0
  0
LINE
  5
AE
330
1F
100
AcDbEntity
  8
0
  6
Continuous
 62
     7
370
    25
100
AcDbLine
 10
-162.84598853
 20
115.0029005303
 30
0.0
 11
-162.84598853
 21
146.5029005303
 31
0.0
  0
LINE
  5
AF
330
1F
100
AcDbEntity
  8
0
  6
Continuous
 62
     7
370
    25
100
AcDbLine
 10
-162.84598853
 20
83.5029005303
 30
0.0
 11
-162.84598853
 21
115.0029005303
 31
0.0
  0
LINE
  5
B0
330
1F
100
AcDbEntity
  8
0
  6
Continuous
 62
     7
370
    25
100
AcDbLine
 10
53.15401147
 20
115.0029005303
 30
0.0
 11
53.15401147
 21
146.5029005303
 31
0.0
  0
LINE
  5
B1
330
1F
100
AcDbEntity
  8
0
  6
Continuous
 62
     7
370
    25
100
AcDbLine
 10
53.15401147
 20
83.5029005303
 30
0.0
 11
53.15401147
 21
115.0029005303
 31
0.0
  0
INSERT
  5
BD
330
1F
100
AcDbEntity
  8
FORMAT
100
AcDbBlockReference
  2
SW_CENTERMARKSYMBOL_1
 10
-54.84598853
 20
115.0029005303
 30
0.0
  0
LINE
  5
BE
330
1F
100
AcDbEntity
  8
0
  6
Continuous
 62
     7
370
    25
100
AcDbLine
 10
389.2728458441
 20
-61.6713174352
 30
0.0
 11
322.1535052342
 21
-22.9241468578
 31
0.0
  0
LINE
  5
BF
330
1F
100
AcDbEntity
  8
0
  6
Continuous
 62
     7
370
    25
100
AcDbLine
 10
474.8885699705
 20
-111.0962229346
 30
0.0
 11
439.2769095425
 21
-90.5380489626
 31
0.0
  0
LINE
  5
C0
330
1F
100
AcDbEntity
  8
0
  6
Continuous
 62
     7
370
    25
100
AcDbLine
 10
290.6560651561
 20
-77.4852251877
 30
0.0
 11
443.3911298924
 21
-165.6573012646
 31
0.0
  0
LINE
  5
C1
330
1F
100
AcDbEntity
  8
0
  6
Continuous
 62
     7
370
    25
100
AcDbLine
 10
413.7029750366
 20
-105.3015671026
 30
0.0
 11
468.1033001835
 21
-73.8969278618
 31
0.0
  0
LINE
  5
C2
330
1F
100
AcDbEntity
  8
0
  6
Continuous
 62
     7
370
    25
100
AcDbLine
 10
443.1053318676
 20
-30.5944847428
 30
0.0
 11
388.7040331763
 21
-61.9996859988
 31
0.0
  0
SPLINE
  5
C3
330
1F
100
AcDbEntity
  8
0
  6
Continuous
 62
     7
370
    25
100
AcDbSpline
210
0.0
220
0.0
230
1.0
 70
     8
 71
     3
 72
    30
 73
    26
 74
     0
 42
0.000000001
 43
0.00000001
 40
0.0
 40
0.0
 40
0.0
 40
0.0
 40
0.0567957889136608
 40
0.1154880049750018
 40
0.1722358519246063
 40
0.2303788110824528
 40
0.2683860700375266
 40
0.3066811827139009
 40
0.3457996592745327
 40
0.3851739556753359
 40
0.4237514583214139
 40
0.4625722732618351
 40
0.5022493766011505
 40
0.5422996861622549
 40
0.5871971405987276
 40
0.6331664023758584
 40
0.6781446124706757
 40
0.7247057390812734
 40
0.7774881406013527
 40
0.8317644695554456
 40
0.8705778059898263
 40
0.9096814635943795
 40
0.949599163108454
 40
0.9897783623453963
 40
1.0
 40
1.0
 40
1.0
 40
1.0
 10
387.3685116410052
 20
-71.22719490218272
 30
0.0
 10
387.3756176307509
 20
-72.23081340036887
 30
0.0
 10
387.3900668812111
 20
-74.2715614968118
 30
0.0
 10
387.5079383393931
 20
-77.68765707408673
 30
0.0
 10
387.7005643592311
 20
-81.25203215764769
 30
0.0
 10
387.9463867515548
 20
-84.44134892638488
 30
0.0
 10
388.2248912948969
 20
-87.22120453852247
 30
0.0
 10
388.5124545956808
 20
-89.57691292424572
 30
0.0
 10
388.8608026590895
 20
-91.91245406410229
 30
0.0
 10
389.2793163743422
 20
-94.19103970702719
 30
0.0
 10
389.7801868320699
 20
-96.38823733410659
 30
0.0
 10
390.3845801629786
 20
-98.5015223504772
 30
0.0
 10
391.1274324417193
 20
-100.5308813642773
 30
0.0
 10
392.0835648597926
 20
-102.5182687828322
 30
0.0
 10
393.3310729239058
 20
-104.3986399856744
 30
0.0
 10
394.9487647890739
 20
-106.0420389533199
 30
0.0
 10
396.9267235491847
 20
-107.303121264113
 30
0.0
 10
399.2996168912586
 20
-108.144931039813
 30
0.0
 10
402.0343930737993
 20
-108.4999659443518
 30
0.0
 10
404.7029930388209
 20
-108.3651475081846
 30
0.0
 10
407.1006244773814
 20
-107.9357165353558
 30
0.0
 10
409.1994689309428
 20
-107.3530322927919
 30
0.0
 10
411.2468787201986
 20
-106.5617523783853
 30
0.0
 10
412.7575453130616
 20
-105.8642927833805
 30
0.0
 10
413.5354276616358
 20
-105.3827514080181
 30
0.0
 10
413.6931875718957
 20
-105.2850914928614
 30
0.0
  0
SPLINE
  5
C4
330
1F
100
AcDbEntity
  8
0
  6
Continuous
 62
     7
370
    25
100
AcDbSpline
210
0.0
220
0.0
230
1.0
 70
     8
 71
     3
 72
    14
 73
    10
 74
     0
 42
0.000000001
 43
0.00000001
 40
0.0
 40
0.0
 40
0.0
 40
0.0
 40
0.0809387524560325
 40
0.2867987043878213
 40
0.3921375689578278
 40
0.4982830101647199
 40
0.6681411395074642
 40
0.8426739891659274
 40
0.9999999999999999
 40
0.9999999999999999
 40
0.9999999999999999
 40
0.9999999999999999
 10
388.7171403617609
 20
-62.02200843953661
 30
0.0
 10
388.6364329229295
 20
-62.06757328778545
 30
0.0
 10
388.3504538561793
 20
-62.22902795624598
 30
0.0
 10
388.0712317754504
 20
-62.81866253676836
 30
0.0
 10
387.8285270802076
 20
-63.73173173477764
 30
0.0
 10
387.648276472789
 20
-64.78466114303738
 30
0.0
 10
387.4920656212385
 20
-66.3708549693743
 30
0.0
 10
387.3869122817845
 20
-68.58213380611663
 30
0.0
 10
387.3744294434155
 20
-70.37652078070393
 30
0.0
 10
387.3685116410052
 20
-71.22719490218272
 30
0.0
  0
LWPOLYLINE
  5
C5
330
1F
100
AcDbEntity
  8
0
  6
Continuous
 62
     7
370
    25
100
AcDbPolyline
 90
       84
 70
   128
 43
0.0
 10
328.6786488025
 20
-37.3462582615
 10
328.6148574657
 20
-35.4378345531
 10
328.4238488462
 20
-33.6139940326
 10
328.1067170242
 20
-31.8851834933
 10
327.665278502
 20
-30.2613054056
 10
327.1020617995
 20
-28.7516611959
 10
326.4202929708
 20
-27.3648979697
 10
325.6238771263
 20
-26.1089589812
 10
324.7173760636
 20
-24.991038135
 10
323.7059821388
 20
-24.0175387806
 10
322.5954885247
 20
-23.1940370341
 10
321.3922560282
 20
-22.5252498389
 10
320.1031766559
 20
-22.0150079476
 10
318.735634138
 20
-21.6662339794
 10
317.2974616339
 20
-21.4809256802
 10
315.7968968656
 20
-21.4601444789
 10
314.2425349322
 20
-21.6040094086
 10
312.6432790781
 20
-21.9116964238
 10
311.008289696
 20
-22.3814431213
 10
309.346931857
 20
-23.0105588344
 10
307.6687216684
 20
-23.7954400454
 10
305.9832717661
 20
-24.7315910258
 10
304.3002362545
 20
-25.8136495875
 10
302.6292554087
 20
-27.035417797
 10
300.9799004557
 20
-28.3898974768
 10
299.3616187511
 20
-29.8693302898
 10
297.7836796661
 20
-31.4652421789
 10
296.2551214928
 20
-33.1684919053
 10
294.7846996741
 20
-34.9693234088
 10
293.3808366529
 20
-36.8574216896
 10
292.0515736296
 20
-38.8219718919
 10
290.8045245023
 20
-40.8517212499
 10
289.6468322554
 20
-42.9350435431
 10
288.5851280455
 20
-45.06000569
 10
287.6254932179
 20
-47.2144361001
 10
286.7734244742
 20
-49.3859943909
 10
286.0338023868
 20
-51.5622420732
 10
285.4108634442
 20
-53.7307137974
 10
284.9081757842
 20
-55.8789887538
 10
284.5286187562
 20
-57.9947618181
 10
284.2743664285
 20
-60.0659140336
 10
284.1468751353
 20
-62.0805820282
 10
284.1468751353
 20
-64.0272259658
 10
284.2743664285
 20
-65.8946956465
 10
284.5286187562
 20
-67.6722943729
 10
284.9081757842
 20
-69.3498402205
 10
285.4108634442
 20
-70.9177243587
 10
286.0338023868
 20
-72.366966089
 10
286.7734244742
 20
-73.6892642861
 10
287.6254932179
 20
-74.8770449457
 10
288.5851280455
 20
-75.9235045676
 10
289.6468322554
 20
-76.8226491261
 10
290.8045245023
 20
-77.5693284023
 10
292.0515736296
 20
-78.1592654852
 10
293.3808366529
 20
-78.5890812684
 10
294.7846996741
 20
-78.8563138061
 10
296.2551214928
 20
-78.9594324146
 10
297.7836796661
 20
-78.8978464397
 10
299.3616187511
 20
-78.6719086404
 10
300.9799004557
 20
-78.2829131679
 10
302.6292554087
 20
-77.7330881531
 10
304.3002362545
 20
-77.0255829438
 10
305.9832717661
 20
-76.1644500658
 10
307.6687216684
 20
-75.1546220103
 10
309.346931857
 20
-74.001882981
 10
311.008289696
 20
-72.7128357624
 10
312.6432790781
 20
-71.2948639006
 10
314.2425349322
 20
-69.7560894097
 10
315.7968968656
 20
-68.1053262508
 10
317.2974616339
 20
-66.3520298457
 10
318.735634138
 20
-64.5062429175
 10
320.103176656
 20
-62.5785379666
 10
321.3922560282
 20
-60.5799567123
 10
322.5954885247
 20
-58.521946847
 10
323.7059821388
 20
-56.416296465
 10
324.7173760636
 20
-54.2750665409
 10
325.6238771263
 20
-52.1105218457
 10
326.4202929708
 20
-49.9350606956
 10
327.1020617995
 20
-47.7611439349
 10
327.665278502
 20
-45.6012235621
 10
328.1067170242
 20
-43.4676714053
 10
328.4238488462
 20
-41.3727082581
 10
328.6148574657
 20
-39.3283338798
 10
328.6786488025
 20
-37.3462582615
  0
LWPOLYLINE
  5
C6
330
1F
100
AcDbEntity
  8
0
  6
Continuous
 62
     7
370
    25
100
AcDbPolyline
 90
       12
 70
   128
 43
0.0
 10
481.4137135388
 20
-125.5183343384
 10
481.349922202
 20
-123.6099106299
 10
481.1589135825
 20
-121.7860701094
 10
480.8417817605
 20
-120.0572595702
 10
480.4003432383
 20
-118.4333814824
 10
479.8371265358
 20
-116.9237372728
 10
479.1553577071
 20
-115.5369740466
 10
478.3589418626
 20
-114.281035058
 10
477.4524407999
 20
-113.1631142118
 10
476.4410468751
 20
-112.1896148574
 10
475.330553261
 20
-111.3661131109
 10
474.8885699705
 20
-111.0962229346
  0
LWPOLYLINE
  5
C7
330
1F
100
AcDbEntity
  8
0
  6
Continuous
 62
     7
370
    25
100
AcDbPolyline
 90
       33
 70
   128
 43
0.0
 10
443.3911298924
 20
-165.6573012646
 10
443.5395892385
 20
-165.7414044792
 10
444.7866383659
 20
-166.331341562
 10
446.1159013892
 20
-166.7611573452
 10
447.5197644104
 20
-167.028389883
 10
448.9901862291
 20
-167.1315084914
 10
450.5187444024
 20
-167.0699225165
 10
452.0966834874
 20
-166.8439847172
 10
453.714965192
 20
-166.4549892448
 10
455.364320145
 20
-165.9051642299
 10
457.0353009908
 20
-165.1976590207
 10
458.7183365024
 20
-164.3365261427
 10
460.4037864047
 20
-163.3266980872
 10
462.0819965933
 20
-162.1739590578
 10
463.7433544323
 20
-160.8849118393
 10
465.3783438144
 20
-159.4669399774
 10
466.9775996685
 20
-157.9281654865
 10
468.5319616019
 20
-156.2774023276
 10
470.0325263702
 20
-154.5241059226
 10
471.4706988742
 20
-152.6783189944
 10
472.8382413922
 20
-150.7506140434
 10
474.1273207645
 20
-148.7520327891
 10
475.330553261
 20
-146.6940229239
 10
476.4410468751
 20
-144.5883725419
 10
477.4524407999
 20
-142.4471426177
 10
478.3589418626
 20
-140.2825979226
 10
479.1553577071
 20
-138.1071367725
 10
479.8371265358
 20
-135.9332200118
 10
480.4003432383
 20
-133.7732996389
 10
480.8417817605
 20
-131.6397474821
 10
481.1589135825
 20
-129.544784335
 10
481.349922202
 20
-127.5004099566
 10
481.4137135388
 20
-125.5183343384
  0
LWPOLYLINE
  5
C8
330
1F
100
AcDbEntity
  8
0
  6
Continuous
 62
     7
370
    25
100
AcDbPolyline
 90
       76
 70
   128
 43
0.0
 10
324.5774294716
 20
-39.7138417858
 10
324.5136954504
 20
-37.994646838
 10
324.3229404349
 20
-36.3610965421
 10
324.0065024345
 20
-34.8246490798
 10
323.5666010346
 20
-33.3960815262
 10
323.0063218273
 20
-32.0854142561
 10
322.3295947687
 20
-30.9018406588
 10
321.5411666129
 20
-29.8536626527
 10
320.6465676169
 20
-28.9482324532
 10
319.65207275
 20
-28.1919010029
 10
318.564657679
 20
-27.5899734233
 10
317.3919498394
 20
-27.1466718039
 10
316.1421749341
 20
-26.8651055871
 10
314.8240992361
 20
-26.7472497576
 10
313.4469680993
 20
-26.7939309894
 10
312.0204411093
 20
-27.0048218471
 10
310.5545243279
 20
-27.3784430829
 10
309.059500108
 20
-27.9121740123
 10
307.5458549705
 20
-28.6022708964
 10
306.0242060483
 20
-29.4438932012
 10
304.5052266154
 20
-30.431137551
 10
302.9995712211
 20
-31.5570791362
 10
301.5178009562
 20
-32.8138202853
 10
300.0703093744
 20
-34.1925458622
 10
298.6672495892
 20
-35.6835850977
 10
297.3184630569
 20
-37.2764794228
 10
296.0334105458
 20
-38.9600558283
 10
294.8211057761
 20
-40.7225052353
 10
293.6900521947
 20
-42.5514653276
 10
292.6481833297
 20
-44.4341072642
 10
291.7028071427
 20
-46.3572256647
 10
290.8605547684
 20
-48.3073312352
 10
290.127334002
 20
-50.2707453863
 10
289.5082878604
 20
-52.2336961785
 10
289.0077585075
 20
-54.1824149222
 10
288.6292567971
 20
-56.1032327557
 10
288.3754376467
 20
-57.9826765219
 10
288.2480814152
 20
-59.8075632733
 10
288.2480814152
 20
-61.5650927404
 10
288.3754376467
 20
-63.2429371169
 10
288.6292567971
 20
-64.8293275299
 10
289.0077585075
 20
-66.3131365905
 10
289.5082878604
 20
-67.6839564442
 10
290.127334002
 20
-68.9321717749
 10
290.8605547684
 20
-70.0490272486
 10
291.7028071427
 20
-71.0266889268
 10
292.6481833297
 20
-71.8582992152
 10
293.6900521947
 20
-72.5380249651
 10
294.8211057761
 20
-73.0610983889
 10
296.0334105458
 20
-73.4238505022
 10
297.3184630569
 20
-73.6237368596
 10
298.6672495892
 20
-73.659355402
 10
300.0703093744
 20
-73.5304562909
 10
301.5178009562
 20
-73.2379436608
 10
302.9995712211
 20
-72.7838692778
 10
304.5052266154
 20
-72.1714181474
 10
306.0242060483
 20
-71.4048861742
 10
307.5458549705
 20
-70.4896500293
 10
309.059500108
 20
-69.4321294365
 10
310.5545243279
 20
-68.2397421432
 10
312.0204411093
 20
-66.9208518893
 10
313.4469680993
 20
-65.4847097424
 10
314.8240992361
 20
-63.9413892078
 10
316.1421749341
 20
-62.3017155702
 10
317.3919498394
 20
-60.577189962
 10
318.564657679
 20
-58.7799086913
 10
319.65207275
 20
-56.9224783948
 10
320.6465676169
 20
-55.0179276117
 10
321.5411666129
 20
-53.079615397
 10
322.3295947687
 20
-51.1211376185
 10
323.0063218273
 20
-49.1562315904
 10
323.5666010346
 20
-47.1986797169
 10
324.0065024345
 20
-45.2622128178
 10
324.3229404349
 20
-43.3604138171
 10
324.5136954504
 20
-41.5066224683
 10
324.5774294716
 20
-39.7138417858
  0
LWPOLYLINE
  5
C9
330
1F
100
AcDbEntity
  8
0
  6
Continuous
 62
     7
370
    25
100
AcDbPolyline
 90
       68
 70
   128
 43
0.0
 10
470.0292943617
 20
-60.5730690429
 10
469.9659107476
 20
-58.9766516643
 10
469.7763169226
 20
-57.3210824959
 10
469.4621790442
 20
-55.620910739
 10
469.0262577673
 20
-53.8910775642
 10
468.4723839838
 20
-52.1467848075
 10
467.8054251564
 20
-50.4033613765
 10
467.0312425432
 20
-48.6761285389
 10
466.1566396889
 20
-46.9802652791
 10
465.1893026349
 20
-45.3306749043
 10
464.1377323739
 20
-43.7418540741
 10
463.0111701432
 20
-42.227765403
 10
461.8195162121
 20
-40.8017147568
 10
460.5732428784
 20
-39.4762343197
 10
459.2833024368
 20
-38.2629724616
 10
457.9610309304
 20
-37.1725913712
 10
456.6180485286
 20
-36.2146733568
 10
455.2661574091
 20
-35.3976366364
 10
453.9172380398
 20
-34.7286613579
 10
452.5831447724
 20
-34.2136265003
 10
451.2756016666
 20
-33.8570582084
 10
450.0060994583
 20
-33.662090017
 10
448.7857945784
 20
-33.6304353138
 10
447.6254111102
 20
-33.7623722814
 10
446.5351465452
 20
-34.056741453
 10
445.5245821678
 20
-34.5109559016
 10
444.6025988539
 20
-35.1210239744
 10
443.7772990261
 20
-35.8815843713
 10
443.055935449
 20
-36.7859532601
 10
442.4448474915
 20
-37.8261830145
 10
441.9494054167
 20
-38.9931320581
 10
441.5739631873
 20
-40.2765452006
 10
441.3218202032
 20
-41.6651437612
 10
441.1951923058
 20
-43.1467246859
 10
441.1951923058
 20
-44.7082677881
 10
441.3218202032
 20
-46.3360501711
 10
441.5739631873
 20
-48.0157668246
 10
441.9494054167
 20
-49.7326563384
 10
442.4448474915
 20
-51.4716306256
 10
443.055935449
 20
-53.2174075177
 10
443.7772990261
 20
-54.9546450646
 10
444.6025988539
 20
-56.6680763602
 10
445.5245821678
 20
-58.3426437087
 10
446.5351465452
 20
-59.9636309521
 10
447.6254111102
 20
-61.5167927961
 10
448.7857945784
 20
-62.9884799987
 10
450.0060994583
 20
-64.3657593198
 10
451.2756016666
 20
-65.6365271792
 10
452.5831447724
 20
-66.7896160232
 10
453.9172380398
 20
-67.8148924657
 10
455.2661574091
 20
-68.7033463403
 10
456.6180485286
 20
-69.4471698825
 10
457.9610309304
 20
-70.0398263443
 10
459.2833024368
 20
-70.4761074394
 10
460.5732428784
 20
-70.7521791137
 10
461.8195162121
 20
-70.8656152396
 10
463.0111701432
 20
-70.8154189362
 10
464.1377323739
 20
-70.6020313305
 10
465.1893026349
 20
-70.2273276805
 10
466.1566396889
 20
-69.6946008952
 10
467.0312425432
 20
-69.0085325968
 10
467.8054251564
 20
-68.1751519783
 10
468.4723839838
 20
-67.2017828183
 10
469.0262577673
 20
-66.0969791202
 10
469.4621790442
 20
-64.8704499385
 10
469.7763169226
 20
-63.5329740558
 10
469.9659107476
 20
-62.0963052583
 10
470.0292943617
 20
-60.5730690429
  0
LWPOLYLINE
  5
CA
330
1F
100
AcDbEntity
  8
0
  6
Continuous
 62
     7
370
    25
100
AcDbPolyline
 90
       75
 70
   128
 43
0.0
 10
473.2819855552
 20
-62.4508077001
 10
473.2183015481
 20
-60.6828562448
 10
473.0277083718
 20
-58.8541149308
 10
472.7115792544
 20
-56.9777598812
 10
472.2721919133
 20
-55.0673102772
 10
471.7127121446
 20
-53.1365309518
 10
471.0371710127
 20
-51.1993332145
 10
470.250435807
 20
-49.2696746192
 10
469.3581749726
 20
-47.3614584004
 10
468.3668172694
 20
-45.4884332996
 10
467.2835054522
 20
-43.6640945057
 10
466.1160448076
 20
-41.9015864214
 10
464.8728469162
 20
-40.2136079579
 10
463.5628690474
 20
-38.6123210387
 10
462.1955496217
 20
-37.1092629727
 10
460.7807402069
 20
-35.7152633277
 10
459.3286345372
 20
-34.4403659032
 10
457.8496950674
 20
-33.2937563642
 10
456.35457759
 20
-32.2836960589
 10
454.854054461
 20
-31.4174624948
 10
453.3589369836
 20
-30.7012969046
 10
451.8799975138
 20
-30.1403592777
 10
450.4278918441
 20
-29.7386911828
 10
449.0130824293
 20
-29.4991866475
 10
447.6457630036
 20
-29.4235713076
 10
446.3357851348
 20
-29.5123899733
 10
445.0925872434
 20
-29.765002704
 10
443.9251265988
 20
-30.1795894194
 10
442.8418147817
 20
-30.7531630125
 10
441.8504570784
 20
-31.4815908725
 10
440.958196244
 20
-32.35962466
 10
440.1714610383
 20
-33.3809381214
 10
439.4959199064
 20
-34.5381726699
 10
438.9364401377
 20
-35.8229904039
 10
438.4970527966
 20
-37.2261341824
 10
438.1809236792
 20
-38.7374943221
 10
437.9903305029
 20
-40.3461814386
 10
437.9266464958
 20
-42.0406049045
 10
437.9903305029
 20
-43.8085563598
 10
438.1809236792
 20
-45.6372976738
 10
438.4970527966
 20
-47.5136527234
 10
438.9364401377
 20
-49.4241023274
 10
439.4959199064
 20
-51.3548816528
 10
440.1714610383
 20
-53.2920793902
 10
440.958196244
 20
-55.2217379854
 10
441.8504570784
 20
-57.1299542043
 10
442.8418147817
 20
-59.002979305
 10
443.9251265988
 20
-60.8273180989
 10
445.0925872434
 20
-62.5898261832
 10
446.3357851348
 20
-64.2778046467
 10
447.6457630036
 20
-65.879091566
 10
449.0130824293
 20
-67.382149632
 10
450.4278918441
 20
-68.7761492769
 10
451.8799975138
 20
-70.0510467014
 10
453.3589369836
 20
-71.1976562404
 10
454.854054461
 20
-72.2077165457
 10
456.3545775901
 20
-73.0739501098
 10
457.8496950674
 20
-73.7901157
 10
459.3286345372
 20
-74.3510533269
 10
460.7807402069
 20
-74.7527214218
 10
462.1955496217
 20
-74.9922259571
 10
463.5628690474
 20
-75.067841297
 10
464.8728469162
 20
-74.9790226313
 10
466.1160448076
 20
-74.7264099006
 10
467.2835054522
 20
-74.3118231852
 10
468.3668172694
 20
-73.7382495921
 10
469.3581749726
 20
-73.0098217321
 10
470.250435807
 20
-72.1317879446
 10
471.0371710127
 20
-71.1104744832
 10
471.7127121446
 20
-69.9532399347
 10
472.2721919133
 20
-68.6684222007
 10
472.7115792544
 20
-67.2652784223
 10
473.0277083718
 20
-65.7539182825
 10
473.2183015481
 20
-64.145231166
 10
473.2819855552
 20
-62.4508077001
  0
ENDSEC
  0
SECTION
  2
OBJECTS
  0
DICTIONARY
  5
C
330
0
100
AcDbDictionary
281
     1
  3
ACAD_GROUP
350
D
  3
ACAD_LAYOUT
350
1A
  3
ACAD_MLINESTYLE
350
17
  3
ACAD_PLOTSETTINGS
350
19
  3
ACAD_PLOTSTYLENAME
350
E
  3
ACAD_SCALELIST
350
47
  0
DICTIONARY
  5
D
102
{ACAD_REACTORS
330
C
102
}
330
C
100
AcDbDictionary
281
     1
  0
DICTIONARY
  5
1A
102
{ACAD_REACTORS
330
C
102
}
330
C
100
AcDbDictionary
281
     1
  3
Layout1
350
1E
  3
Layout2
350
26
  3
Model
350
22
  0
DICTIONARY
  5
17
102
{ACAD_REACTORS
330
C
102
}
330
C
100
AcDbDictionary
281
     1
  3
Standard
350
18
  0
DICTIONARY
  5
19
102
{ACAD_REACTORS
330
C
102
}
330
C
100
AcDbDictionary
281
     1
  0
ACDBDICTIONARYWDFLT
  5
E
102
{ACAD_REACTORS
330
C
102
}
330
C
100
AcDbDictionary
281
     1
  3
Normal
350
F
100
AcDbDictionaryWithDefault
340
F
  0
DICTIONARY
  5
47
102
{ACAD_REACTORS
330
C
102
}
330
C
100
AcDbDictionary
281
     1
  3
A0
350
48
  3
A1
350
49
  3
A2
350
4A
  3
A3
350
4B
  3
A4
350
4C
  3
A5
350
4D
  3
A6
350
4E
  3
A7
350
4F
  3
A8
350
50
  3
A9
350
51
  3
B0
350
52
  3
B1
350
53
  3
B2
350
54
  3
B3
350
55
  3
B4
350
56
  3
B5
350
57
  3
B6
350
58
  3
B7
350
59
  3
B8
350
5A
  3
B9
350
5B
  3
C0
350
5C
  3
C1
350
5D
  3
C2
350
5E
  3
C3
350
5F
  3
C4
350
60
  3
C5
350
61
  3
C6
350
62
  3
C7
350
63
  3
C8
350
64
  3
C9
350
65
  3
D0
350
66
  3
D1
350
67
  3
D2
350
68
  0
LAYOUT
  5
1E
102
{ACAD_REACTORS
330
1A
102
}
330
1A
100
AcDbPlotSettings
  1

  2
none_device
  4

  6

 40
0.0
 41
0.0
 42
0.0
 43
0.0
 44
0.0
 45
0.0
 46
0.0
 47
0.0
 48
0.0
 49
0.0
140
0.0
141
0.0
142
1.0
143
1.0
 70
   688
 72
     1
 73
     0
 74
     5
  7

 75
    16
147
1.0
148
0.0
149
0.0
100
AcDbLayout
  1
Layout1
 70
     1
 71
     1
 10
0.0
 20
0.0
 11
420.0
 21
297.0
 12
0.0
 22
0.0
 32
0.0
 14
1.0000000000E+20
 24
1.0000000000E+20
 34
1.0000000000E+20
 15
-1.0000000000E+20
 25
-1.0000000000E+20
 35
-1.0000000000E+20
146
0.0
 13
0.0
 23
0.0
 33
0.0
 16
1.0
 26
0.0
 36
0.0
 17
0.0
 27
1.0
 37
0.0
 76
     0
330
1B
  0
LAYOUT
  5
26
102
{ACAD_REACTORS
330
1A
102
}
330
1A
100
AcDbPlotSettings
  1

  2
none_device
  4

  6

 40
0.0
 41
0.0
 42
0.0
 43
0.0
 44
0.0
 45
0.0
 46
0.0
 47
0.0
 48
0.0
 49
0.0
140
0.0
141
0.0
142
1.0
143
1.0
 70
   688
 72
     1
 73
     0
 74
     5
  7

 75
    16
147
1.0
148
0.0
149
0.0
100
AcDbLayout
  1
Layout2
 70
     1
 71
     2
 10
0.0
 20
0.0
 11
0.0
 21
0.0
 12
0.0
 22
0.0
 32
0.0
 14
0.0
 24
0.0
 34
0.0
 15
0.0
 25
0.0
 35
0.0
146
0.0
 13
0.0
 23
0.0
 33
0.0
 16
1.0
 26
0.0
 36
0.0
 17
0.0
 27
1.0
 37
0.0
 76
     0
330
23
  0
LAYOUT
  5
22
102
{ACAD_REACTORS
330
1A
102
}
330
1A
100
AcDbPlotSettings
  1

  2
none_device
  4
Letter_(8.50_x_11.00_Inches)
  6

 40
6.35
 41
6.35
 42
6.35000508
 43
6.35000508
 44
215.9
 45
279.4
 46
0.0
 47
0.0
 48
0.0
 49
0.0
140
0.0
141
0.0
142
1.0
143
1.0
 70
  1712
 72
     1
 73
     0
 74
     0
  7

 75
     0
147
1.0
148
0.0
149
0.0
100
AcDbLayout
  1
Model
 70
     1
 71
     0
 10
0.0
 20
0.0
 11
279.4
 21
215.9
 12
0.0
 22
0.0
 32
0.0
 14
0.0
 24
0.0
 34
0.0
 15
279.4
 25
215.9
 35
0.0
146
0.0
 13
0.0
 23
0.0
 33
0.0
 16
1.0
 26
0.0
 36
0.0
 17
0.0
 27
1.0
 37
0.0
 76
     0
330
1F
331
29
  0
MLINESTYLE
  5
18
102
{ACAD_REACTORS
330
17
102
}
330
17
100
AcDbMlineStyle
  2
Standard
 70
     0
  3

 62
   256
 51
90.0
 52
90.0
 71
     2
 49
0.5
 62
   256
  6
BYLAYER
 49
-0.5
 62
   256
  6
BYLAYER
  0
ACDBPLACEHOLDER
  5
F
102
{ACAD_REACTORS
330
E
102
}
330
E
  0
SCALE
  5
48
102
{ACAD_REACTORS
330
47
102
}
330
47
100
AcDbScale
 70
     0
300
1:1
140
1.0
141
1.0
290
     1
  0
SCALE
  5
49
102
{ACAD_REACTORS
330
47
102
}
330
47
100
AcDbScale
 70
     0
300
1:2
140
1.0
141
2.0
290
     0
  0
SCALE
  5
4A
102
{ACAD_REACTORS
330
47
102
}
330
47
100
AcDbScale
 70
     0
300
1:4
140
1.0
141
4.0
290
     0
  0
SCALE
  5
4B
102
{ACAD_REACTORS
330
47
102
}
330
47
100
AcDbScale
 70
     0
300
1:5
140
1.0
141
5.0
290
     0
  0
SCALE
  5
4C
102
{ACAD_REACTORS
330
47
102
}
330
47
100
AcDbScale
 70
     0
300
1:8
140
1.0
141
8.0
290
     0
  0
SCALE
  5
4D
102
{ACAD_REACTORS
330
47
102
}
330
47
100
AcDbScale
 70
     0
300
1:10
140
1.0
141
10.0
290
     0
  0
SCALE
  5
4E
102
{ACAD_REACTORS
330
47
102
}
330
47
100
AcDbScale
 70
     0
300
1:16
140
1.0
141
16.0
290
     0
  0
SCALE
  5
4F
102
{ACAD_REACTORS
330
47
102
}
330
47
100
AcDbScale
 70
     0
300
1:20
140
1.0
141
20.0
290
     0
  0
SCALE
  5
50
102
{ACAD_REACTORS
330
47
102
}
330
47
100
AcDbScale
 70
     0
300
1:30
140
1.0
141
30.0
290
     0
  0
SCALE
  5
51
102
{ACAD_REACTORS
330
47
102
}
330
47
100
AcDbScale
 70
     0
300
1:40
140
1.0
141
40.0
290
     0
  0
SCALE
  5
52
102
{ACAD_REACTORS
330
47
102
}
330
47
100
AcDbScale
 70
     0
300
1:50
140
1.0
141
50.0
290
     0
  0
SCALE
  5
53
102
{ACAD_REACTORS
330
47
102
}
330
47
100
AcDbScale
 70
     0
300
1:100
140
1.0
141
100.0
290
     0
  0
SCALE
  5
54
102
{ACAD_REACTORS
330
47
102
}
330
47
100
AcDbScale
 70
     0
300
2:1
140
2.0
141
1.0
290
     0
  0
SCALE
  5
55
102
{ACAD_REACTORS
330
47
102
}
330
47
100
AcDbScale
 70
     0
300
4:1
140
4.0
141
1.0
290
     0
  0
SCALE
  5
56
102
{ACAD_REACTORS
330
47
102
}
330
47
100
AcDbScale
 70
     0
300
8:1
140
8.0
141
1.0
290
     0
  0
SCALE
  5
57
102
{ACAD_REACTORS
330
47
102
}
330
47
100
AcDbScale
 70
     0
300
10:1
140
10.0
141
1.0
290
     0
  0
SCALE
  5
58
102
{ACAD_REACTORS
330
47
102
}
330
47
100
AcDbScale
 70
     0
300
100:1
140
100.0
141
1.0
290
     0
  0
SCALE
  5
59
102
{ACAD_REACTORS
330
47
102
}
330
47
100
AcDbScale
 70
     0
300
1/128" = 1'-0"
140
0.0078125
141
12.0
290
     0
  0
SCALE
  5
5A
102
{ACAD_REACTORS
330
47
102
}
330
47
100
AcDbScale
 70
     0
300
1/64" = 1'-0"
140
0.015625
141
12.0
290
     0
  0
SCALE
  5
5B
102
{ACAD_REACTORS
330
47
102
}
330
47
100
AcDbScale
 70
     0
300
1/32" = 1'-0"
140
0.03125
141
12.0
290
     0
  0
SCALE
  5
5C
102
{ACAD_REACTORS
330
47
102
}
330
47
100
AcDbScale
 70
     0
300
1/16" = 1'-0"
140
0.0625
141
12.0
290
     0
  0
SCALE
  5
5D
102
{ACAD_REACTORS
330
47
102
}
330
47
100
AcDbScale
 70
     0
300
3/32" = 1'-0"
140
0.09375
141
12.0
290
     0
  0
SCALE
  5
5E
102
{ACAD_REACTORS
330
47
102
}
330
47
100
AcDbScale
 70
     0
300
1/8" = 1'-0"
140
0.125
141
12.0
290
     0
  0
SCALE
  5
5F
102
{ACAD_REACTORS
330
47
102
}
330
47
100
AcDbScale
 70
     0
300
3/16" = 1'-0"
140
0.1875
141
12.0
290
     0
  0
SCALE
  5
60
102
{ACAD_REACTORS
330
47
102
}
330
47
100
AcDbScale
 70
     0
300
1/4" = 1'-0"
140
0.25
141
12.0
290
     0
  0
SCALE
  5
61
102
{ACAD_REACTORS
330
47
102
}
330
47
100
AcDbScale
 70
     0
300
3/8" = 1'-0"
140
0.375
141
12.0
290
     0
  0
SCALE
  5
62
102
{ACAD_REACTORS
330
47
102
}
330
47
100
AcDbScale
 70
     0
300
1/2" = 1'-0"
140
0.5
141
12.0
290
     0
  0
SCALE
  5
63
102
{ACAD_REACTORS
330
47
102
}
330
47
100
AcDbScale
 70
     0
300
3/4" = 1'-0"
140
0.75
141
12.0
290
     0
  0
SCALE
  5
64
102
{ACAD_REACTORS
330
47
102
}
330
47
100
AcDbScale
 70
     0
300
1" = 1'-0"
140
1.0
141
12.0
290
     0
  0
SCALE
  5
65
102
{ACAD_REACTORS
330
47
102
}
330
47
100
AcDbScale
 70
     0
300
1-1/2" = 1'-0"
140
1.5
141
12.0
290
     0
  0
SCALE
  5
66
102
{ACAD_REACTORS
330
47
102
}
330
47
100
AcDbScale
 70
     0
300
3" = 1'-0"
140
3.0
141
12.0
290
     0
  0
SCALE
  5
67
102
{ACAD_REACTORS
330
47
102
}
330
47
100
AcDbScale
 70
     0
300
6" = 1'-0"
140
6.0
141
12.0
290
     0
  0
SCALE
  5
68
102
{ACAD_REACTORS
330
47
102
}
330
47
100
AcDbScale
 70
     0
300
1'-0" = 1'-0"
140
12.0
141
12.0
290
     0
  0
ENDSEC
  0
EOF
